ISO-10303-21;
HEADER;
FILE_DESCRIPTION(('STEP AP214'),'1');
FILE_NAME('HALDERN_EH_23112_0660.stp','2017-08-10T07:37:59',('TraceParts'),('TraceParts S.A.'),'Spatial InterOp 3D',' ',' ');
FILE_SCHEMA(('automotive_design'));
ENDSEC;
DATA;
#1=MECHANICAL_DESIGN_GEOMETRIC_PRESENTATION_REPRESENTATION(' ',(#10,#11,#12,#13,#14,#15,#16,#17,#18,#19),#6);
#2=PRODUCT_DEFINITION_CONTEXT('',#20,'design');
#3=APPLICATION_PROTOCOL_DEFINITION('INTERNATIONAL STANDARD','automotive_design',1994,#20);
#4=PRODUCT_CATEGORY_RELATIONSHIP('NONE','NONE',#21,#22);
#5=SHAPE_DEFINITION_REPRESENTATION(#23,#24);
#6= (GEOMETRIC_REPRESENTATION_CONTEXT(3)GLOBAL_UNCERTAINTY_ASSIGNED_CONTEXT((#27))GLOBAL_UNIT_ASSIGNED_CONTEXT((#29,#30,#31))REPRESENTATION_CONTEXT('NONE','WORKSPACE'));
#10=STYLED_ITEM('',(#33),#34);
#11=STYLED_ITEM('',(#35),#36);
#12=STYLED_ITEM('',(#37),#38);
#13=STYLED_ITEM('',(#39),#40);
#14=STYLED_ITEM('',(#41),#42);
#15=STYLED_ITEM('',(#43),#44);
#16=STYLED_ITEM('',(#45),#46);
#17=STYLED_ITEM('',(#47),#48);
#18=STYLED_ITEM('',(#49),#50);
#19=STYLED_ITEM('',(#51),#52);
#20=APPLICATION_CONTEXT(' ');
#21=PRODUCT_CATEGORY('part','NONE');
#22=PRODUCT_RELATED_PRODUCT_CATEGORY('detail',' ',(#53));
#23=PRODUCT_DEFINITION_SHAPE('NONE','NONE',#54);
#24=ADVANCED_BREP_SHAPE_REPRESENTATION('HALDERN_EH_23112_0660',(#55,#56),#6);
#27=UNCERTAINTY_MEASURE_WITH_UNIT(LENGTH_MEASURE(1.0E-006),#29,'','');
#29= (CONVERSION_BASED_UNIT('MILLIMETRE',#59)LENGTH_UNIT()NAMED_UNIT(#62));
#30= (NAMED_UNIT(#64)PLANE_ANGLE_UNIT()SI_UNIT($,.RADIAN.));
#31= (NAMED_UNIT(#64)SOLID_ANGLE_UNIT()SI_UNIT($,.STERADIAN.));
#33=PRESENTATION_STYLE_ASSIGNMENT((#70));
#34=ADVANCED_FACE('',(#71),#72,.F.);
#35=PRESENTATION_STYLE_ASSIGNMENT((#73));
#36=ADVANCED_FACE('',(#74),#75,.T.);
#37=PRESENTATION_STYLE_ASSIGNMENT((#76));
#38=ADVANCED_FACE('',(#77),#78,.T.);
#39=PRESENTATION_STYLE_ASSIGNMENT((#79));
#40=ADVANCED_FACE('',(#80),#81,.T.);
#41=PRESENTATION_STYLE_ASSIGNMENT((#82));
#42=ADVANCED_FACE('',(#83),#84,.T.);
#43=PRESENTATION_STYLE_ASSIGNMENT((#85));
#44=ADVANCED_FACE('',(#86),#87,.T.);
#45=PRESENTATION_STYLE_ASSIGNMENT((#88));
#46=ADVANCED_FACE('',(#89,#90),#91,.T.);
#47=PRESENTATION_STYLE_ASSIGNMENT((#92));
#48=ADVANCED_FACE('',(#93),#94,.T.);
#49=PRESENTATION_STYLE_ASSIGNMENT((#95));
#50=ADVANCED_FACE('',(#96),#97,.F.);
#51=PRESENTATION_STYLE_ASSIGNMENT((#98));
#52=ADVANCED_FACE('',(#99,#100),#101,.T.);
#53=PRODUCT('HALDERN_EH_23112_0660','HALDERN_EH_23112_0660','PART-HALDERN_EH_23112_0660-DESC',(#102));
#54=PRODUCT_DEFINITION('NONE','NONE',#103,#2);
#55=MANIFOLD_SOLID_BREP('HALDERN_EH_23112_0660',#104);
#56=AXIS2_PLACEMENT_3D('',#105,#106,#107);
#59=LENGTH_MEASURE_WITH_UNIT(LENGTH_MEASURE(1.0),#108);
#62=DIMENSIONAL_EXPONENTS(1.0,0.0,0.0,0.0,0.0,0.0,0.0);
#64=DIMENSIONAL_EXPONENTS(0.0,0.0,0.0,0.0,0.0,0.0,0.0);
#70=SURFACE_STYLE_USAGE(.BOTH.,#109);
#71=FACE_OUTER_BOUND('',#110,.T.);
#72=CYLINDRICAL_SURFACE('',#111,8.0);
#73=SURFACE_STYLE_USAGE(.BOTH.,#112);
#74=FACE_OUTER_BOUND('',#113,.T.);
#75=TOROIDAL_SURFACE('',#114,10.0,2.0);
#76=SURFACE_STYLE_USAGE(.BOTH.,#115);
#77=FACE_OUTER_BOUND('',#116,.T.);
#78=CYLINDRICAL_SURFACE('',#117,13.0);
#79=SURFACE_STYLE_USAGE(.BOTH.,#118);
#80=FACE_OUTER_BOUND('',#119,.T.);
#81=CONICAL_SURFACE('',#120,12.675,0.261799387799149);
#82=SURFACE_STYLE_USAGE(.BOTH.,#121);
#83=FACE_OUTER_BOUND('',#122,.T.);
#84=CONICAL_SURFACE('',#123,12.675,0.261799387799149);
#85=SURFACE_STYLE_USAGE(.BOTH.,#124);
#86=FACE_OUTER_BOUND('',#125,.T.);
#87=CYLINDRICAL_SURFACE('',#126,13.0);
#88=SURFACE_STYLE_USAGE(.BOTH.,#127);
#89=FACE_BOUND('',#128,.T.);
#90=FACE_OUTER_BOUND('',#129,.T.);
#91=PLANE('',#130);
#92=SURFACE_STYLE_USAGE(.BOTH.,#131);
#93=FACE_OUTER_BOUND('',#132,.T.);
#94=TOROIDAL_SURFACE('',#133,10.0,2.0);
#95=SURFACE_STYLE_USAGE(.BOTH.,#134);
#96=FACE_OUTER_BOUND('',#135,.T.);
#97=CYLINDRICAL_SURFACE('',#136,8.0);
#98=SURFACE_STYLE_USAGE(.BOTH.,#137);
#99=FACE_OUTER_BOUND('',#138,.T.);
#100=FACE_BOUND('',#139,.T.);
#101=PLANE('',#140);
#102=PRODUCT_CONTEXT('',#20,'mechanical');
#103=PRODUCT_DEFINITION_FORMATION_WITH_SPECIFIED_SOURCE(' ','NONE',#53,.NOT_KNOWN.);
#104=CLOSED_SHELL('',(#34,#36,#38,#40,#42,#44,#46,#48,#50,#52));
#105=CARTESIAN_POINT('',(0.0,0.0,0.0));
#106=DIRECTION('',(0.0,0.0,1.0));
#107=DIRECTION('',(1.0,0.0,0.0));
#108= (NAMED_UNIT(#62)LENGTH_UNIT()SI_UNIT(.MILLI.,.METRE.));
#109=SURFACE_SIDE_STYLE('',(#142));
#110=EDGE_LOOP('',(#143,#144,#145,#146,#147));
#111=AXIS2_PLACEMENT_3D('',#148,#149,#150);
#112=SURFACE_SIDE_STYLE('',(#151));
#113=EDGE_LOOP('',(#152,#153,#154,#155,#156,#157));
#114=AXIS2_PLACEMENT_3D('',#158,#159,#160);
#115=SURFACE_SIDE_STYLE('',(#161));
#116=EDGE_LOOP('',(#162,#163,#164,#165));
#117=AXIS2_PLACEMENT_3D('',#166,#167,#168);
#118=SURFACE_SIDE_STYLE('',(#169));
#119=EDGE_LOOP('',(#170,#171,#172,#173));
#120=AXIS2_PLACEMENT_3D('',#174,#175,#176);
#121=SURFACE_SIDE_STYLE('',(#177));
#122=EDGE_LOOP('',(#178,#179,#180,#181));
#123=AXIS2_PLACEMENT_3D('',#182,#183,#184);
#124=SURFACE_SIDE_STYLE('',(#185));
#125=EDGE_LOOP('',(#186,#187,#188,#189));
#126=AXIS2_PLACEMENT_3D('',#190,#191,#192);
#127=SURFACE_SIDE_STYLE('',(#193));
#128=EDGE_LOOP('',(#194,#195,#196));
#129=EDGE_LOOP('',(#197,#198));
#130=AXIS2_PLACEMENT_3D('',#199,#200,#201);
#131=SURFACE_SIDE_STYLE('',(#202));
#132=EDGE_LOOP('',(#203,#204,#205,#206,#207));
#133=AXIS2_PLACEMENT_3D('',#208,#209,#210);
#134=SURFACE_SIDE_STYLE('',(#211));
#135=EDGE_LOOP('',(#212,#213,#214,#215,#216));
#136=AXIS2_PLACEMENT_3D('',#217,#218,#219);
#137=SURFACE_SIDE_STYLE('',(#220));
#138=EDGE_LOOP('',(#221,#222));
#139=EDGE_LOOP('',(#223,#224));
#140=AXIS2_PLACEMENT_3D('',#225,#226,#227);
#142=SURFACE_STYLE_FILL_AREA(#228);
#143=ORIENTED_EDGE('',*,*,#229,.F.);
#144=ORIENTED_EDGE('',*,*,#230,.F.);
#145=ORIENTED_EDGE('',*,*,#231,.F.);
#146=ORIENTED_EDGE('',*,*,#232,.T.);
#147=ORIENTED_EDGE('',*,*,#233,.T.);
#148=CARTESIAN_POINT('',(0.0,7.0,0.0));
#149=DIRECTION('',(-0.0,1.0,0.0));
#150=DIRECTION('',(1.0,0.0,0.0));
#151=SURFACE_STYLE_FILL_AREA(#234);
#152=ORIENTED_EDGE('',*,*,#235,.F.);
#153=ORIENTED_EDGE('',*,*,#236,.T.);
#154=ORIENTED_EDGE('',*,*,#237,.T.);
#155=ORIENTED_EDGE('',*,*,#238,.F.);
#156=ORIENTED_EDGE('',*,*,#239,.F.);
#157=ORIENTED_EDGE('',*,*,#233,.F.);
#158=CARTESIAN_POINT('',(8.88178419700125E-016,14.0,0.0));
#159=DIRECTION('',(0.0,1.0,0.0));
#160=DIRECTION('',(0.0,0.0,1.0));
#161=SURFACE_STYLE_FILL_AREA(#240);
#162=ORIENTED_EDGE('',*,*,#241,.F.);
#163=ORIENTED_EDGE('',*,*,#242,.T.);
#164=ORIENTED_EDGE('',*,*,#243,.F.);
#165=ORIENTED_EDGE('',*,*,#244,.F.);
#166=CARTESIAN_POINT('',(0.0,9.21291651245989,0.0));
#167=DIRECTION('',(-0.0,1.0,0.0));
#168=DIRECTION('',(1.0,0.0,0.0));
#169=SURFACE_STYLE_FILL_AREA(#245);
#170=ORIENTED_EDGE('',*,*,#246,.F.);
#171=ORIENTED_EDGE('',*,*,#247,.T.);
#172=ORIENTED_EDGE('',*,*,#248,.F.);
#173=ORIENTED_EDGE('',*,*,#242,.F.);
#174=CARTESIAN_POINT('',(0.0,1.21291651245989,0.0));
#175=DIRECTION('',(-0.0,1.0,-0.0));
#176=DIRECTION('',(1.0,0.0,0.0));
#177=SURFACE_STYLE_FILL_AREA(#249);
#178=ORIENTED_EDGE('',*,*,#246,.T.);
#179=ORIENTED_EDGE('',*,*,#250,.F.);
#180=ORIENTED_EDGE('',*,*,#248,.T.);
#181=ORIENTED_EDGE('',*,*,#251,.T.);
#182=CARTESIAN_POINT('',(0.0,1.21291651245989,0.0));
#183=DIRECTION('',(-0.0,1.0,-0.0));
#184=DIRECTION('',(1.0,0.0,0.0));
#185=SURFACE_STYLE_FILL_AREA(#252);
#186=ORIENTED_EDGE('',*,*,#241,.T.);
#187=ORIENTED_EDGE('',*,*,#253,.F.);
#188=ORIENTED_EDGE('',*,*,#243,.T.);
#189=ORIENTED_EDGE('',*,*,#250,.T.);
#190=CARTESIAN_POINT('',(0.0,9.21291651245989,0.0));
#191=DIRECTION('',(-0.0,1.0,0.0));
#192=DIRECTION('',(1.0,0.0,0.0));
#193=SURFACE_STYLE_FILL_AREA(#254);
#194=ORIENTED_EDGE('',*,*,#237,.F.);
#195=ORIENTED_EDGE('',*,*,#236,.F.);
#196=ORIENTED_EDGE('',*,*,#255,.F.);
#197=ORIENTED_EDGE('',*,*,#244,.T.);
#198=ORIENTED_EDGE('',*,*,#253,.T.);
#199=CARTESIAN_POINT('',(11.5,16.0,0.0));
#200=DIRECTION('',(-0.0,1.0,0.0));
#201=DIRECTION('',(1.0,0.0,0.0));
#202=SURFACE_STYLE_FILL_AREA(#256);
#203=ORIENTED_EDGE('',*,*,#235,.T.);
#204=ORIENTED_EDGE('',*,*,#232,.F.);
#205=ORIENTED_EDGE('',*,*,#257,.F.);
#206=ORIENTED_EDGE('',*,*,#238,.T.);
#207=ORIENTED_EDGE('',*,*,#255,.T.);
#208=CARTESIAN_POINT('',(8.88178419700125E-016,14.0,0.0));
#209=DIRECTION('',(0.0,1.0,0.0));
#210=DIRECTION('',(0.0,0.0,1.0));
#211=SURFACE_STYLE_FILL_AREA(#258);
#212=ORIENTED_EDGE('',*,*,#229,.T.);
#213=ORIENTED_EDGE('',*,*,#239,.T.);
#214=ORIENTED_EDGE('',*,*,#257,.T.);
#215=ORIENTED_EDGE('',*,*,#231,.T.);
#216=ORIENTED_EDGE('',*,*,#259,.F.);
#217=CARTESIAN_POINT('',(0.0,7.0,0.0));
#218=DIRECTION('',(-0.0,1.0,0.0));
#219=DIRECTION('',(1.0,0.0,0.0));
#220=SURFACE_STYLE_FILL_AREA(#260);
#221=ORIENTED_EDGE('',*,*,#247,.F.);
#222=ORIENTED_EDGE('',*,*,#251,.F.);
#223=ORIENTED_EDGE('',*,*,#259,.T.);
#224=ORIENTED_EDGE('',*,*,#230,.T.);
#225=CARTESIAN_POINT('',(10.175,0.0,0.0));
#226=DIRECTION('',(-0.0,-1.0,-0.0));
#227=DIRECTION('',(-1.0,0.0,0.0));
#228=FILL_AREA_STYLE('',(#261));
#229=EDGE_CURVE('',#262,#263,#264,.T.);
#230=EDGE_CURVE('',#265,#262,#266,.T.);
#231=EDGE_CURVE('',#267,#265,#268,.T.);
#232=EDGE_CURVE('',#267,#269,#270,.T.);
#233=EDGE_CURVE('',#269,#263,#271,.T.);
#234=FILL_AREA_STYLE('',(#272));
#235=EDGE_CURVE('',#273,#269,#274,.T.);
#236=EDGE_CURVE('',#273,#275,#276,.T.);
#237=EDGE_CURVE('',#275,#277,#278,.T.);
#238=EDGE_CURVE('',#279,#277,#280,.T.);
#239=EDGE_CURVE('',#263,#279,#281,.T.);
#240=FILL_AREA_STYLE('',(#282));
#241=EDGE_CURVE('',#283,#284,#285,.T.);
#242=EDGE_CURVE('',#283,#286,#287,.T.);
#243=EDGE_CURVE('',#288,#286,#289,.T.);
#244=EDGE_CURVE('',#284,#288,#290,.T.);
#245=FILL_AREA_STYLE('',(#291));
#246=EDGE_CURVE('',#292,#283,#293,.T.);
#247=EDGE_CURVE('',#292,#294,#295,.T.);
#248=EDGE_CURVE('',#286,#294,#296,.T.);
#249=FILL_AREA_STYLE('',(#297));
#250=EDGE_CURVE('',#286,#283,#298,.T.);
#251=EDGE_CURVE('',#294,#292,#299,.T.);
#252=FILL_AREA_STYLE('',(#300));
#253=EDGE_CURVE('',#288,#284,#301,.T.);
#254=FILL_AREA_STYLE('',(#302));
#255=EDGE_CURVE('',#277,#273,#303,.T.);
#256=FILL_AREA_STYLE('',(#304));
#257=EDGE_CURVE('',#279,#267,#305,.T.);
#258=FILL_AREA_STYLE('',(#306));
#259=EDGE_CURVE('',#262,#265,#307,.T.);
#260=FILL_AREA_STYLE('',(#308));
#261=FILL_AREA_STYLE_COLOUR('',#309);
#262=VERTEX_POINT('',#310);
#263=VERTEX_POINT('',#311);
#264=LINE('',#312,#313);
#265=VERTEX_POINT('',#314);
#266=CIRCLE('',#315,8.0);
#267=VERTEX_POINT('',#316);
#268=LINE('',#317,#318);
#269=VERTEX_POINT('',#319);
#270=CIRCLE('',#320,8.0);
#271=CIRCLE('',#321,8.0);
#272=FILL_AREA_STYLE_COLOUR('',#322);
#273=VERTEX_POINT('',#323);
#274=CIRCLE('',#324,2.0);
#275=VERTEX_POINT('',#325);
#276=CIRCLE('',#326,10.0);
#277=VERTEX_POINT('',#327);
#278=CIRCLE('',#328,10.0);
#279=VERTEX_POINT('',#329);
#280=CIRCLE('',#330,2.0);
#281=CIRCLE('',#331,8.0);
#282=FILL_AREA_STYLE_COLOUR('',#332);
#283=VERTEX_POINT('',#333);
#284=VERTEX_POINT('',#334);
#285=LINE('',#335,#336);
#286=VERTEX_POINT('',#337);
#287=CIRCLE('',#338,13.0);
#288=VERTEX_POINT('',#339);
#289=LINE('',#340,#341);
#290=CIRCLE('',#342,13.0);
#291=FILL_AREA_STYLE_COLOUR('',#343);
#292=VERTEX_POINT('',#344);
#293=LINE('',#345,#346);
#294=VERTEX_POINT('',#347);
#295=CIRCLE('',#348,12.35);
#296=LINE('',#349,#350);
#297=FILL_AREA_STYLE_COLOUR('',#351);
#298=CIRCLE('',#352,13.0);
#299=CIRCLE('',#353,12.35);
#300=FILL_AREA_STYLE_COLOUR('',#354);
#301=CIRCLE('',#355,13.0);
#302=FILL_AREA_STYLE_COLOUR('',#356);
#303=CIRCLE('',#357,10.0);
#304=FILL_AREA_STYLE_COLOUR('',#358);
#305=CIRCLE('',#359,8.0);
#306=FILL_AREA_STYLE_COLOUR('',#360);
#307=CIRCLE('',#361,8.0);
#308=FILL_AREA_STYLE_COLOUR('',#362);
#309=COLOUR_RGB('',0.752941191196442,0.752941191196442,0.752941191196442);
#310=CARTESIAN_POINT('',(8.0,0.0,0.0));
#311=CARTESIAN_POINT('',(8.0,14.0,0.0));
#312=CARTESIAN_POINT('',(8.0,7.0,9.79685083057902E-016));
#313=VECTOR('',#363,1.0);
#314=CARTESIAN_POINT('',(-8.0,0.0,-9.79685083057902E-016));
#315=AXIS2_PLACEMENT_3D('',#364,#365,#366);
#316=CARTESIAN_POINT('',(-8.0,14.0,-9.79685083057902E-016));
#317=CARTESIAN_POINT('',(-8.0,7.0,-9.79685083057902E-016));
#318=VECTOR('',#367,1.0);
#319=CARTESIAN_POINT('',(-9.15066633577766E-017,14.0,8.0));
#320=AXIS2_PLACEMENT_3D('',#368,#369,#370);
#321=AXIS2_PLACEMENT_3D('',#371,#372,#373);
#322=COLOUR_RGB('',0.752941191196442,0.752941191196442,0.752941191196442);
#323=CARTESIAN_POINT('',(-3.36427934122252E-016,16.0,10.0));
#324=AXIS2_PLACEMENT_3D('',#374,#375,#376);
#325=CARTESIAN_POINT('',(10.0,16.0,0.0));
#326=AXIS2_PLACEMENT_3D('',#377,#378,#379);
#327=CARTESIAN_POINT('',(2.1127847735225E-015,16.0,-10.0));
#328=AXIS2_PLACEMENT_3D('',#380,#381,#382);
#329=CARTESIAN_POINT('',(1.86786350275803E-015,14.0,-8.0));
#330=AXIS2_PLACEMENT_3D('',#383,#384,#385);
#331=AXIS2_PLACEMENT_3D('',#386,#387,#388);
#332=COLOUR_RGB('',0.752941191196442,0.752941191196442,0.752941191196442);
#333=CARTESIAN_POINT('',(13.0,2.42583302491977,0.0));
#334=CARTESIAN_POINT('',(13.0,16.0,0.0));
#335=CARTESIAN_POINT('',(13.0,9.21291651245989,1.59198825996909E-015));
#336=VECTOR('',#389,1.0);
#337=CARTESIAN_POINT('',(-13.0,2.42583302491977,-1.59198825996909E-015));
#338=AXIS2_PLACEMENT_3D('',#390,#391,#392);
#339=CARTESIAN_POINT('',(-13.0,16.0,-1.59198825996909E-015));
#340=CARTESIAN_POINT('',(-13.0,9.21291651245989,-1.59198825996909E-015));
#341=VECTOR('',#393,1.0);
#342=AXIS2_PLACEMENT_3D('',#394,#395,#396);
#343=COLOUR_RGB('',0.752941191196442,0.752941191196442,0.752941191196442);
#344=CARTESIAN_POINT('',(12.35,0.0,0.0));
#345=CARTESIAN_POINT('',(12.675,1.21291651245989,1.55218855346986E-015));
#346=VECTOR('',#397,1.0);
#347=CARTESIAN_POINT('',(-12.35,0.0,-1.51238884697064E-015));
#348=AXIS2_PLACEMENT_3D('',#398,#399,#400);
#349=CARTESIAN_POINT('',(-12.675,1.21291651245989,-1.55218855346986E-015));
#350=VECTOR('',#401,1.0);
#351=COLOUR_RGB('',0.752941191196442,0.752941191196442,0.752941191196442);
#352=AXIS2_PLACEMENT_3D('',#402,#403,#404);
#353=AXIS2_PLACEMENT_3D('',#405,#406,#407);
#354=COLOUR_RGB('',0.752941191196442,0.752941191196442,0.752941191196442);
#355=AXIS2_PLACEMENT_3D('',#408,#409,#410);
#356=COLOUR_RGB('',0.752941191196442,0.752941191196442,0.752941191196442);
#357=AXIS2_PLACEMENT_3D('',#411,#412,#413);
#358=COLOUR_RGB('',0.752941191196442,0.752941191196442,0.752941191196442);
#359=AXIS2_PLACEMENT_3D('',#414,#415,#416);
#360=COLOUR_RGB('',0.752941191196442,0.752941191196442,0.752941191196442);
#361=AXIS2_PLACEMENT_3D('',#417,#418,#419);
#362=COLOUR_RGB('',0.752941191196442,0.752941191196442,0.752941191196442);
#363=DIRECTION('',(-0.0,1.0,-0.0));
#364=CARTESIAN_POINT('',(0.0,0.0,0.0));
#365=DIRECTION('',(-0.0,1.0,0.0));
#366=DIRECTION('',(1.0,0.0,0.0));
#367=DIRECTION('',(-0.0,-1.0,-0.0));
#368=CARTESIAN_POINT('',(0.0,14.0,0.0));
#369=DIRECTION('',(-0.0,1.0,0.0));
#370=DIRECTION('',(1.0,0.0,0.0));
#371=CARTESIAN_POINT('',(0.0,14.0,0.0));
#372=DIRECTION('',(-0.0,1.0,0.0));
#373=DIRECTION('',(1.0,0.0,0.0));
#374=CARTESIAN_POINT('',(-3.36427934122252E-016,14.0,10.0));
#375=DIRECTION('',(-1.0,0.0,-1.22460635382238E-016));
#376=DIRECTION('',(-1.22460635382238E-016,-0.0,1.0));
#377=CARTESIAN_POINT('',(0.0,16.0,0.0));
#378=DIRECTION('',(-0.0,1.0,0.0));
#379=DIRECTION('',(1.0,0.0,0.0));
#380=CARTESIAN_POINT('',(0.0,16.0,0.0));
#381=DIRECTION('',(-0.0,1.0,0.0));
#382=DIRECTION('',(1.0,0.0,0.0));
#383=CARTESIAN_POINT('',(2.1127847735225E-015,14.0,-10.0));
#384=DIRECTION('',(-1.0,0.0,-1.22460635382238E-016));
#385=DIRECTION('',(1.22460635382238E-016,0.0,-1.0));
#386=CARTESIAN_POINT('',(0.0,14.0,0.0));
#387=DIRECTION('',(-0.0,1.0,0.0));
#388=DIRECTION('',(1.0,0.0,0.0));
#389=DIRECTION('',(0.0,1.0,0.0));
#390=CARTESIAN_POINT('',(0.0,2.42583302491977,0.0));
#391=DIRECTION('',(-0.0,1.0,0.0));
#392=DIRECTION('',(1.0,0.0,0.0));
#393=DIRECTION('',(-0.0,-1.0,-0.0));
#394=CARTESIAN_POINT('',(0.0,16.0,0.0));
#395=DIRECTION('',(-0.0,1.0,0.0));
#396=DIRECTION('',(1.0,0.0,0.0));
#397=DIRECTION('',(0.258819045102521,0.965925826289068,3.16951447122787E-017));
#398=CARTESIAN_POINT('',(0.0,0.0,0.0));
#399=DIRECTION('',(-0.0,1.0,0.0));
#400=DIRECTION('',(1.0,0.0,0.0));
#401=DIRECTION('',(0.258819045102521,-0.965925826289068,3.16951447122787E-017));
#402=CARTESIAN_POINT('',(0.0,2.42583302491977,0.0));
#403=DIRECTION('',(-0.0,1.0,0.0));
#404=DIRECTION('',(1.0,0.0,0.0));
#405=CARTESIAN_POINT('',(0.0,0.0,0.0));
#406=DIRECTION('',(-0.0,1.0,0.0));
#407=DIRECTION('',(1.0,0.0,0.0));
#408=CARTESIAN_POINT('',(0.0,16.0,0.0));
#409=DIRECTION('',(-0.0,1.0,0.0));
#410=DIRECTION('',(1.0,0.0,0.0));
#411=CARTESIAN_POINT('',(0.0,16.0,0.0));
#412=DIRECTION('',(-0.0,1.0,0.0));
#413=DIRECTION('',(1.0,0.0,0.0));
#414=CARTESIAN_POINT('',(0.0,14.0,0.0));
#415=DIRECTION('',(-0.0,1.0,0.0));
#416=DIRECTION('',(1.0,0.0,0.0));
#417=CARTESIAN_POINT('',(0.0,0.0,0.0));
#418=DIRECTION('',(-0.0,1.0,0.0));
#419=DIRECTION('',(1.0,0.0,0.0));
ENDSEC;
END-ISO-10303-21;
