ISO-10303-21;
HEADER;
FILE_DESCRIPTION(('STEP AP214'),'1');
FILE_NAME('HALDERN_EH_23112_0117.stp','2017-08-10T07:28:37',('TraceParts'),('TraceParts S.A.'),'Spatial InterOp 3D',' ',' ');
FILE_SCHEMA(('automotive_design'));
ENDSEC;
DATA;
#1=MECHANICAL_DESIGN_GEOMETRIC_PRESENTATION_REPRESENTATION(' ',(#10,#11,#12,#13,#14,#15,#16,#17,#18,#19,#20,#21,#22),#6);
#2=PRODUCT_DEFINITION_CONTEXT('',#23,'design');
#3=APPLICATION_PROTOCOL_DEFINITION('INTERNATIONAL STANDARD','automotive_design',1994,#23);
#4=PRODUCT_CATEGORY_RELATIONSHIP('NONE','NONE',#24,#25);
#5=SHAPE_DEFINITION_REPRESENTATION(#26,#27);
#6= (GEOMETRIC_REPRESENTATION_CONTEXT(3)GLOBAL_UNCERTAINTY_ASSIGNED_CONTEXT((#30))GLOBAL_UNIT_ASSIGNED_CONTEXT((#32,#33,#34))REPRESENTATION_CONTEXT('NONE','WORKSPACE'));
#10=STYLED_ITEM('',(#36),#37);
#11=STYLED_ITEM('',(#38),#39);
#12=STYLED_ITEM('',(#40),#41);
#13=STYLED_ITEM('',(#42),#43);
#14=STYLED_ITEM('',(#44),#45);
#15=STYLED_ITEM('',(#46),#47);
#16=STYLED_ITEM('',(#48),#49);
#17=STYLED_ITEM('',(#50),#51);
#18=STYLED_ITEM('',(#52),#53);
#19=STYLED_ITEM('',(#54),#55);
#20=STYLED_ITEM('',(#56),#57);
#21=STYLED_ITEM('',(#58),#59);
#22=STYLED_ITEM('',(#60),#61);
#23=APPLICATION_CONTEXT(' ');
#24=PRODUCT_CATEGORY('part','NONE');
#25=PRODUCT_RELATED_PRODUCT_CATEGORY('detail',' ',(#62));
#26=PRODUCT_DEFINITION_SHAPE('NONE','NONE',#63);
#27=ADVANCED_BREP_SHAPE_REPRESENTATION('HALDERN_EH_23112_0117',(#64,#65),#6);
#30=UNCERTAINTY_MEASURE_WITH_UNIT(LENGTH_MEASURE(1.0E-006),#32,'','');
#32= (CONVERSION_BASED_UNIT('MILLIMETRE',#68)LENGTH_UNIT()NAMED_UNIT(#71));
#33= (NAMED_UNIT(#73)PLANE_ANGLE_UNIT()SI_UNIT($,.RADIAN.));
#34= (NAMED_UNIT(#73)SOLID_ANGLE_UNIT()SI_UNIT($,.STERADIAN.));
#36=PRESENTATION_STYLE_ASSIGNMENT((#79));
#37=ADVANCED_FACE('',(#80),#81,.F.);
#38=PRESENTATION_STYLE_ASSIGNMENT((#82));
#39=ADVANCED_FACE('',(#83),#84,.T.);
#40=PRESENTATION_STYLE_ASSIGNMENT((#85));
#41=ADVANCED_FACE('',(#86),#87,.T.);
#42=PRESENTATION_STYLE_ASSIGNMENT((#88));
#43=ADVANCED_FACE('',(#89),#90,.T.);
#44=PRESENTATION_STYLE_ASSIGNMENT((#91));
#45=ADVANCED_FACE('',(#92),#93,.T.);
#46=PRESENTATION_STYLE_ASSIGNMENT((#94));
#47=ADVANCED_FACE('',(#95),#96,.T.);
#48=PRESENTATION_STYLE_ASSIGNMENT((#97));
#49=ADVANCED_FACE('',(#98),#99,.T.);
#50=PRESENTATION_STYLE_ASSIGNMENT((#100));
#51=ADVANCED_FACE('',(#101,#102),#103,.T.);
#52=PRESENTATION_STYLE_ASSIGNMENT((#104));
#53=ADVANCED_FACE('',(#105),#106,.T.);
#54=PRESENTATION_STYLE_ASSIGNMENT((#107));
#55=ADVANCED_FACE('',(#108,#109),#110,.T.);
#56=PRESENTATION_STYLE_ASSIGNMENT((#111));
#57=ADVANCED_FACE('',(#112),#113,.T.);
#58=PRESENTATION_STYLE_ASSIGNMENT((#114));
#59=ADVANCED_FACE('',(#115),#116,.F.);
#60=PRESENTATION_STYLE_ASSIGNMENT((#117));
#61=ADVANCED_FACE('',(#118,#119),#120,.T.);
#62=PRODUCT('HALDERN_EH_23112_0117','HALDERN_EH_23112_0117','PART-HALDERN_EH_23112_0117-DESC',(#121));
#63=PRODUCT_DEFINITION('NONE','NONE',#122,#2);
#64=MANIFOLD_SOLID_BREP('HALDERN_EH_23112_0117',#123);
#65=AXIS2_PLACEMENT_3D('',#124,#125,#126);
#68=LENGTH_MEASURE_WITH_UNIT(LENGTH_MEASURE(1.0),#127);
#71=DIMENSIONAL_EXPONENTS(1.0,0.0,0.0,0.0,0.0,0.0,0.0);
#73=DIMENSIONAL_EXPONENTS(0.0,0.0,0.0,0.0,0.0,0.0,0.0);
#79=SURFACE_STYLE_USAGE(.BOTH.,#128);
#80=FACE_OUTER_BOUND('',#129,.T.);
#81=CYLINDRICAL_SURFACE('',#130,5.75);
#82=SURFACE_STYLE_USAGE(.BOTH.,#131);
#83=FACE_OUTER_BOUND('',#132,.T.);
#84=TOROIDAL_SURFACE('',#133,7.75,2.0);
#85=SURFACE_STYLE_USAGE(.BOTH.,#134);
#86=FACE_OUTER_BOUND('',#135,.T.);
#87=CYLINDRICAL_SURFACE('',#136,11.0);
#88=SURFACE_STYLE_USAGE(.BOTH.,#137);
#89=FACE_OUTER_BOUND('',#138,.T.);
#90=CYLINDRICAL_SURFACE('',#139,9.0);
#91=SURFACE_STYLE_USAGE(.BOTH.,#140);
#92=FACE_OUTER_BOUND('',#141,.T.);
#93=CONICAL_SURFACE('',#142,8.775,0.261799387799149);
#94=SURFACE_STYLE_USAGE(.BOTH.,#143);
#95=FACE_OUTER_BOUND('',#144,.T.);
#96=CONICAL_SURFACE('',#145,8.775,0.261799387799149);
#97=SURFACE_STYLE_USAGE(.BOTH.,#146);
#98=FACE_OUTER_BOUND('',#147,.T.);
#99=CYLINDRICAL_SURFACE('',#148,9.0);
#100=SURFACE_STYLE_USAGE(.BOTH.,#149);
#101=FACE_OUTER_BOUND('',#150,.T.);
#102=FACE_BOUND('',#151,.T.);
#103=PLANE('',#152);
#104=SURFACE_STYLE_USAGE(.BOTH.,#153);
#105=FACE_OUTER_BOUND('',#154,.T.);
#106=CYLINDRICAL_SURFACE('',#155,11.0);
#107=SURFACE_STYLE_USAGE(.BOTH.,#156);
#108=FACE_BOUND('',#157,.T.);
#109=FACE_OUTER_BOUND('',#158,.T.);
#110=PLANE('',#159);
#111=SURFACE_STYLE_USAGE(.BOTH.,#160);
#112=FACE_OUTER_BOUND('',#161,.T.);
#113=TOROIDAL_SURFACE('',#162,7.75,2.0);
#114=SURFACE_STYLE_USAGE(.BOTH.,#163);
#115=FACE_OUTER_BOUND('',#164,.T.);
#116=CYLINDRICAL_SURFACE('',#165,5.75);
#117=SURFACE_STYLE_USAGE(.BOTH.,#166);
#118=FACE_OUTER_BOUND('',#167,.T.);
#119=FACE_BOUND('',#168,.T.);
#120=PLANE('',#169);
#121=PRODUCT_CONTEXT('',#23,'mechanical');
#122=PRODUCT_DEFINITION_FORMATION_WITH_SPECIFIED_SOURCE(' ','NONE',#62,.NOT_KNOWN.);
#123=CLOSED_SHELL('',(#37,#39,#41,#43,#45,#47,#49,#51,#53,#55,#57,#59,#61));
#124=CARTESIAN_POINT('',(0.0,0.0,0.0));
#125=DIRECTION('',(0.0,0.0,1.0));
#126=DIRECTION('',(1.0,0.0,0.0));
#127= (NAMED_UNIT(#71)LENGTH_UNIT()SI_UNIT(.MILLI.,.METRE.));
#128=SURFACE_SIDE_STYLE('',(#171));
#129=EDGE_LOOP('',(#172,#173,#174,#175,#176));
#130=AXIS2_PLACEMENT_3D('',#177,#178,#179);
#131=SURFACE_SIDE_STYLE('',(#180));
#132=EDGE_LOOP('',(#181,#182,#183,#184,#185,#186));
#133=AXIS2_PLACEMENT_3D('',#187,#188,#189);
#134=SURFACE_SIDE_STYLE('',(#190));
#135=EDGE_LOOP('',(#191,#192,#193,#194));
#136=AXIS2_PLACEMENT_3D('',#195,#196,#197);
#137=SURFACE_SIDE_STYLE('',(#198));
#138=EDGE_LOOP('',(#199,#200,#201,#202));
#139=AXIS2_PLACEMENT_3D('',#203,#204,#205);
#140=SURFACE_SIDE_STYLE('',(#206));
#141=EDGE_LOOP('',(#207,#208,#209,#210));
#142=AXIS2_PLACEMENT_3D('',#211,#212,#213);
#143=SURFACE_SIDE_STYLE('',(#214));
#144=EDGE_LOOP('',(#215,#216,#217,#218));
#145=AXIS2_PLACEMENT_3D('',#219,#220,#221);
#146=SURFACE_SIDE_STYLE('',(#222));
#147=EDGE_LOOP('',(#223,#224,#225,#226));
#148=AXIS2_PLACEMENT_3D('',#227,#228,#229);
#149=SURFACE_SIDE_STYLE('',(#230));
#150=EDGE_LOOP('',(#231,#232));
#151=EDGE_LOOP('',(#233,#234));
#152=AXIS2_PLACEMENT_3D('',#235,#236,#237);
#153=SURFACE_SIDE_STYLE('',(#238));
#154=EDGE_LOOP('',(#239,#240,#241,#242));
#155=AXIS2_PLACEMENT_3D('',#243,#244,#245);
#156=SURFACE_SIDE_STYLE('',(#246));
#157=EDGE_LOOP('',(#247,#248,#249));
#158=EDGE_LOOP('',(#250,#251));
#159=AXIS2_PLACEMENT_3D('',#252,#253,#254);
#160=SURFACE_SIDE_STYLE('',(#255));
#161=EDGE_LOOP('',(#256,#257,#258,#259,#260));
#162=AXIS2_PLACEMENT_3D('',#261,#262,#263);
#163=SURFACE_SIDE_STYLE('',(#264));
#164=EDGE_LOOP('',(#265,#266,#267,#268,#269));
#165=AXIS2_PLACEMENT_3D('',#270,#271,#272);
#166=SURFACE_SIDE_STYLE('',(#273));
#167=EDGE_LOOP('',(#274,#275));
#168=EDGE_LOOP('',(#276,#277));
#169=AXIS2_PLACEMENT_3D('',#278,#279,#280);
#171=SURFACE_STYLE_FILL_AREA(#281);
#172=ORIENTED_EDGE('',*,*,#282,.F.);
#173=ORIENTED_EDGE('',*,*,#283,.F.);
#174=ORIENTED_EDGE('',*,*,#284,.F.);
#175=ORIENTED_EDGE('',*,*,#285,.T.);
#176=ORIENTED_EDGE('',*,*,#286,.T.);
#177=CARTESIAN_POINT('',(0.0,9.0,0.0));
#178=DIRECTION('',(-0.0,1.0,0.0));
#179=DIRECTION('',(1.0,0.0,0.0));
#180=SURFACE_STYLE_FILL_AREA(#287);
#181=ORIENTED_EDGE('',*,*,#288,.F.);
#182=ORIENTED_EDGE('',*,*,#289,.T.);
#183=ORIENTED_EDGE('',*,*,#290,.T.);
#184=ORIENTED_EDGE('',*,*,#291,.F.);
#185=ORIENTED_EDGE('',*,*,#292,.F.);
#186=ORIENTED_EDGE('',*,*,#286,.F.);
#187=CARTESIAN_POINT('',(0.0,18.0,0.0));
#188=DIRECTION('',(0.0,1.0,0.0));
#189=DIRECTION('',(0.0,0.0,1.0));
#190=SURFACE_STYLE_FILL_AREA(#293);
#191=ORIENTED_EDGE('',*,*,#294,.F.);
#192=ORIENTED_EDGE('',*,*,#295,.T.);
#193=ORIENTED_EDGE('',*,*,#296,.F.);
#194=ORIENTED_EDGE('',*,*,#297,.F.);
#195=CARTESIAN_POINT('',(0.0,18.0,0.0));
#196=DIRECTION('',(-0.0,1.0,0.0));
#197=DIRECTION('',(1.0,0.0,0.0));
#198=SURFACE_STYLE_FILL_AREA(#298);
#199=ORIENTED_EDGE('',*,*,#299,.F.);
#200=ORIENTED_EDGE('',*,*,#300,.T.);
#201=ORIENTED_EDGE('',*,*,#301,.F.);
#202=ORIENTED_EDGE('',*,*,#302,.F.);
#203=CARTESIAN_POINT('',(0.0,8.839711431703,0.0));
#204=DIRECTION('',(-0.0,1.0,0.0));
#205=DIRECTION('',(1.0,0.0,0.0));
#206=SURFACE_STYLE_FILL_AREA(#303);
#207=ORIENTED_EDGE('',*,*,#304,.F.);
#208=ORIENTED_EDGE('',*,*,#305,.T.);
#209=ORIENTED_EDGE('',*,*,#306,.F.);
#210=ORIENTED_EDGE('',*,*,#300,.F.);
#211=CARTESIAN_POINT('',(0.0,0.839711431702997,0.0));
#212=DIRECTION('',(-0.0,1.0,-0.0));
#213=DIRECTION('',(1.0,0.0,0.0));
#214=SURFACE_STYLE_FILL_AREA(#307);
#215=ORIENTED_EDGE('',*,*,#304,.T.);
#216=ORIENTED_EDGE('',*,*,#308,.F.);
#217=ORIENTED_EDGE('',*,*,#306,.T.);
#218=ORIENTED_EDGE('',*,*,#309,.T.);
#219=CARTESIAN_POINT('',(0.0,0.839711431702997,0.0));
#220=DIRECTION('',(-0.0,1.0,-0.0));
#221=DIRECTION('',(1.0,0.0,0.0));
#222=SURFACE_STYLE_FILL_AREA(#310);
#223=ORIENTED_EDGE('',*,*,#299,.T.);
#224=ORIENTED_EDGE('',*,*,#311,.F.);
#225=ORIENTED_EDGE('',*,*,#301,.T.);
#226=ORIENTED_EDGE('',*,*,#308,.T.);
#227=CARTESIAN_POINT('',(0.0,8.839711431703,0.0));
#228=DIRECTION('',(-0.0,1.0,0.0));
#229=DIRECTION('',(1.0,0.0,0.0));
#230=SURFACE_STYLE_FILL_AREA(#312);
#231=ORIENTED_EDGE('',*,*,#295,.F.);
#232=ORIENTED_EDGE('',*,*,#313,.F.);
#233=ORIENTED_EDGE('',*,*,#302,.T.);
#234=ORIENTED_EDGE('',*,*,#311,.T.);
#235=CARTESIAN_POINT('',(10.0,16.0,0.0));
#236=DIRECTION('',(-0.0,-1.0,-0.0));
#237=DIRECTION('',(-1.0,0.0,0.0));
#238=SURFACE_STYLE_FILL_AREA(#314);
#239=ORIENTED_EDGE('',*,*,#294,.T.);
#240=ORIENTED_EDGE('',*,*,#315,.F.);
#241=ORIENTED_EDGE('',*,*,#296,.T.);
#242=ORIENTED_EDGE('',*,*,#313,.T.);
#243=CARTESIAN_POINT('',(0.0,18.0,0.0));
#244=DIRECTION('',(-0.0,1.0,0.0));
#245=DIRECTION('',(1.0,0.0,0.0));
#246=SURFACE_STYLE_FILL_AREA(#316);
#247=ORIENTED_EDGE('',*,*,#290,.F.);
#248=ORIENTED_EDGE('',*,*,#289,.F.);
#249=ORIENTED_EDGE('',*,*,#317,.F.);
#250=ORIENTED_EDGE('',*,*,#297,.T.);
#251=ORIENTED_EDGE('',*,*,#315,.T.);
#252=CARTESIAN_POINT('',(9.375,20.0,0.0));
#253=DIRECTION('',(-0.0,1.0,0.0));
#254=DIRECTION('',(1.0,0.0,0.0));
#255=SURFACE_STYLE_FILL_AREA(#318);
#256=ORIENTED_EDGE('',*,*,#288,.T.);
#257=ORIENTED_EDGE('',*,*,#285,.F.);
#258=ORIENTED_EDGE('',*,*,#319,.F.);
#259=ORIENTED_EDGE('',*,*,#291,.T.);
#260=ORIENTED_EDGE('',*,*,#317,.T.);
#261=CARTESIAN_POINT('',(0.0,18.0,0.0));
#262=DIRECTION('',(0.0,1.0,0.0));
#263=DIRECTION('',(0.0,0.0,1.0));
#264=SURFACE_STYLE_FILL_AREA(#320);
#265=ORIENTED_EDGE('',*,*,#282,.T.);
#266=ORIENTED_EDGE('',*,*,#292,.T.);
#267=ORIENTED_EDGE('',*,*,#319,.T.);
#268=ORIENTED_EDGE('',*,*,#284,.T.);
#269=ORIENTED_EDGE('',*,*,#321,.F.);
#270=CARTESIAN_POINT('',(0.0,9.0,0.0));
#271=DIRECTION('',(-0.0,1.0,0.0));
#272=DIRECTION('',(1.0,0.0,0.0));
#273=SURFACE_STYLE_FILL_AREA(#322);
#274=ORIENTED_EDGE('',*,*,#305,.F.);
#275=ORIENTED_EDGE('',*,*,#309,.F.);
#276=ORIENTED_EDGE('',*,*,#321,.T.);
#277=ORIENTED_EDGE('',*,*,#283,.T.);
#278=CARTESIAN_POINT('',(7.15,0.0,0.0));
#279=DIRECTION('',(-0.0,-1.0,-0.0));
#280=DIRECTION('',(-1.0,0.0,0.0));
#281=FILL_AREA_STYLE('',(#323));
#282=EDGE_CURVE('',#324,#325,#326,.T.);
#283=EDGE_CURVE('',#327,#324,#328,.T.);
#284=EDGE_CURVE('',#329,#327,#330,.T.);
#285=EDGE_CURVE('',#329,#331,#332,.T.);
#286=EDGE_CURVE('',#331,#325,#333,.T.);
#287=FILL_AREA_STYLE('',(#334));
#288=EDGE_CURVE('',#335,#331,#336,.T.);
#289=EDGE_CURVE('',#335,#337,#338,.T.);
#290=EDGE_CURVE('',#337,#339,#340,.T.);
#291=EDGE_CURVE('',#341,#339,#342,.T.);
#292=EDGE_CURVE('',#325,#341,#343,.T.);
#293=FILL_AREA_STYLE('',(#344));
#294=EDGE_CURVE('',#345,#346,#347,.T.);
#295=EDGE_CURVE('',#345,#348,#349,.T.);
#296=EDGE_CURVE('',#350,#348,#351,.T.);
#297=EDGE_CURVE('',#346,#350,#352,.T.);
#298=FILL_AREA_STYLE('',(#353));
#299=EDGE_CURVE('',#354,#355,#356,.T.);
#300=EDGE_CURVE('',#354,#357,#358,.T.);
#301=EDGE_CURVE('',#359,#357,#360,.T.);
#302=EDGE_CURVE('',#355,#359,#361,.T.);
#303=FILL_AREA_STYLE('',(#362));
#304=EDGE_CURVE('',#363,#354,#364,.T.);
#305=EDGE_CURVE('',#363,#365,#366,.T.);
#306=EDGE_CURVE('',#357,#365,#367,.T.);
#307=FILL_AREA_STYLE('',(#368));
#308=EDGE_CURVE('',#357,#354,#369,.T.);
#309=EDGE_CURVE('',#365,#363,#370,.T.);
#310=FILL_AREA_STYLE('',(#371));
#311=EDGE_CURVE('',#359,#355,#372,.T.);
#312=FILL_AREA_STYLE('',(#373));
#313=EDGE_CURVE('',#348,#345,#374,.T.);
#314=FILL_AREA_STYLE('',(#375));
#315=EDGE_CURVE('',#350,#346,#376,.T.);
#316=FILL_AREA_STYLE('',(#377));
#317=EDGE_CURVE('',#339,#335,#378,.T.);
#318=FILL_AREA_STYLE('',(#379));
#319=EDGE_CURVE('',#341,#329,#380,.T.);
#320=FILL_AREA_STYLE('',(#381));
#321=EDGE_CURVE('',#324,#327,#382,.T.);
#322=FILL_AREA_STYLE('',(#383));
#323=FILL_AREA_STYLE_COLOUR('',#384);
#324=VERTEX_POINT('',#385);
#325=VERTEX_POINT('',#386);
#326=LINE('',#387,#388);
#327=VERTEX_POINT('',#389);
#328=CIRCLE('',#390,5.75);
#329=VERTEX_POINT('',#391);
#330=LINE('',#392,#393);
#331=VERTEX_POINT('',#394);
#332=CIRCLE('',#395,5.75);
#333=CIRCLE('',#396,5.75);
#334=FILL_AREA_STYLE_COLOUR('',#397);
#335=VERTEX_POINT('',#398);
#336=CIRCLE('',#399,2.0);
#337=VERTEX_POINT('',#400);
#338=CIRCLE('',#401,7.75);
#339=VERTEX_POINT('',#402);
#340=CIRCLE('',#403,7.75);
#341=VERTEX_POINT('',#404);
#342=CIRCLE('',#405,2.0);
#343=CIRCLE('',#406,5.75);
#344=FILL_AREA_STYLE_COLOUR('',#407);
#345=VERTEX_POINT('',#408);
#346=VERTEX_POINT('',#409);
#347=LINE('',#410,#411);
#348=VERTEX_POINT('',#412);
#349=CIRCLE('',#413,11.0);
#350=VERTEX_POINT('',#414);
#351=LINE('',#415,#416);
#352=CIRCLE('',#417,11.0);
#353=FILL_AREA_STYLE_COLOUR('',#418);
#354=VERTEX_POINT('',#419);
#355=VERTEX_POINT('',#420);
#356=LINE('',#421,#422);
#357=VERTEX_POINT('',#423);
#358=CIRCLE('',#424,9.0);
#359=VERTEX_POINT('',#425);
#360=LINE('',#426,#427);
#361=CIRCLE('',#428,9.0);
#362=FILL_AREA_STYLE_COLOUR('',#429);
#363=VERTEX_POINT('',#430);
#364=LINE('',#431,#432);
#365=VERTEX_POINT('',#433);
#366=CIRCLE('',#434,8.55);
#367=LINE('',#435,#436);
#368=FILL_AREA_STYLE_COLOUR('',#437);
#369=CIRCLE('',#438,9.0);
#370=CIRCLE('',#439,8.55);
#371=FILL_AREA_STYLE_COLOUR('',#440);
#372=CIRCLE('',#441,9.0);
#373=FILL_AREA_STYLE_COLOUR('',#442);
#374=CIRCLE('',#443,11.0);
#375=FILL_AREA_STYLE_COLOUR('',#444);
#376=CIRCLE('',#445,11.0);
#377=FILL_AREA_STYLE_COLOUR('',#446);
#378=CIRCLE('',#447,7.75);
#379=FILL_AREA_STYLE_COLOUR('',#448);
#380=CIRCLE('',#449,5.75);
#381=FILL_AREA_STYLE_COLOUR('',#450);
#382=CIRCLE('',#451,5.75);
#383=FILL_AREA_STYLE_COLOUR('',#452);
#384=COLOUR_RGB('',0.752941191196442,0.752941191196442,0.752941191196442);
#385=CARTESIAN_POINT('',(5.75,0.0,0.0));
#386=CARTESIAN_POINT('',(5.75,18.0,0.0));
#387=CARTESIAN_POINT('',(5.75,9.0,7.04148653447867E-016));
#388=VECTOR('',#453,1.0);
#389=CARTESIAN_POINT('',(-5.75,0.0,-7.04148653447867E-016));
#390=AXIS2_PLACEMENT_3D('',#454,#455,#456);
#391=CARTESIAN_POINT('',(-5.75,18.0,-7.04148653447867E-016));
#392=CARTESIAN_POINT('',(-5.75,9.0,-7.04148653447867E-016));
#393=VECTOR('',#457,1.0);
#394=CARTESIAN_POINT('',(-7.04148653447867E-016,18.0,5.75));
#395=AXIS2_PLACEMENT_3D('',#458,#459,#460);
#396=AXIS2_PLACEMENT_3D('',#461,#462,#463);
#397=COLOUR_RGB('',0.752941191196442,0.752941191196442,0.752941191196442);
#398=CARTESIAN_POINT('',(-9.49069924212343E-016,20.0,7.75));
#399=AXIS2_PLACEMENT_3D('',#464,#465,#466);
#400=CARTESIAN_POINT('',(7.75,20.0,0.0));
#401=AXIS2_PLACEMENT_3D('',#467,#468,#469);
#402=CARTESIAN_POINT('',(9.49069924212343E-016,20.0,-7.75));
#403=AXIS2_PLACEMENT_3D('',#470,#471,#472);
#404=CARTESIAN_POINT('',(7.04148653447867E-016,18.0,-5.75));
#405=AXIS2_PLACEMENT_3D('',#473,#474,#475);
#406=AXIS2_PLACEMENT_3D('',#476,#477,#478);
#407=COLOUR_RGB('',0.752941191196442,0.752941191196442,0.752941191196442);
#408=CARTESIAN_POINT('',(11.0,16.0,0.0));
#409=CARTESIAN_POINT('',(11.0,20.0,0.0));
#410=CARTESIAN_POINT('',(11.0,18.0,1.34706698920462E-015));
#411=VECTOR('',#479,1.0);
#412=CARTESIAN_POINT('',(-11.0,16.0,-1.34706698920462E-015));
#413=AXIS2_PLACEMENT_3D('',#480,#481,#482);
#414=CARTESIAN_POINT('',(-11.0,20.0,-1.34706698920462E-015));
#415=CARTESIAN_POINT('',(-11.0,18.0,-1.34706698920462E-015));
#416=VECTOR('',#483,1.0);
#417=AXIS2_PLACEMENT_3D('',#484,#485,#486);
#418=COLOUR_RGB('',0.752941191196442,0.752941191196442,0.752941191196442);
#419=CARTESIAN_POINT('',(9.0,1.67942286340599,0.0));
#420=CARTESIAN_POINT('',(9.0,16.0,0.0));
#421=CARTESIAN_POINT('',(9.0,8.839711431703,1.10214571844014E-015));
#422=VECTOR('',#487,1.0);
#423=CARTESIAN_POINT('',(-9.0,1.67942286340599,-1.10214571844014E-015));
#424=AXIS2_PLACEMENT_3D('',#488,#489,#490);
#425=CARTESIAN_POINT('',(-9.0,16.0,-1.10214571844014E-015));
#426=CARTESIAN_POINT('',(-9.0,8.839711431703,-1.10214571844014E-015));
#427=VECTOR('',#491,1.0);
#428=AXIS2_PLACEMENT_3D('',#492,#493,#494);
#429=COLOUR_RGB('',0.752941191196442,0.752941191196442,0.752941191196442);
#430=CARTESIAN_POINT('',(8.55,0.0,0.0));
#431=CARTESIAN_POINT('',(8.775,0.839711431702997,1.07459207547914E-015));
#432=VECTOR('',#495,1.0);
#433=CARTESIAN_POINT('',(-8.55,0.0,-1.04703843251813E-015));
#434=AXIS2_PLACEMENT_3D('',#496,#497,#498);
#435=CARTESIAN_POINT('',(-8.775,0.839711431702997,-1.07459207547914E-015));
#436=VECTOR('',#499,1.0);
#437=COLOUR_RGB('',0.752941191196442,0.752941191196442,0.752941191196442);
#438=AXIS2_PLACEMENT_3D('',#500,#501,#502);
#439=AXIS2_PLACEMENT_3D('',#503,#504,#505);
#440=COLOUR_RGB('',0.752941191196442,0.752941191196442,0.752941191196442);
#441=AXIS2_PLACEMENT_3D('',#506,#507,#508);
#442=COLOUR_RGB('',0.752941191196442,0.752941191196442,0.752941191196442);
#443=AXIS2_PLACEMENT_3D('',#509,#510,#511);
#444=COLOUR_RGB('',0.752941191196442,0.752941191196442,0.752941191196442);
#445=AXIS2_PLACEMENT_3D('',#512,#513,#514);
#446=COLOUR_RGB('',0.752941191196442,0.752941191196442,0.752941191196442);
#447=AXIS2_PLACEMENT_3D('',#515,#516,#517);
#448=COLOUR_RGB('',0.752941191196442,0.752941191196442,0.752941191196442);
#449=AXIS2_PLACEMENT_3D('',#518,#519,#520);
#450=COLOUR_RGB('',0.752941191196442,0.752941191196442,0.752941191196442);
#451=AXIS2_PLACEMENT_3D('',#521,#522,#523);
#452=COLOUR_RGB('',0.752941191196442,0.752941191196442,0.752941191196442);
#453=DIRECTION('',(-0.0,1.0,-0.0));
#454=CARTESIAN_POINT('',(0.0,0.0,0.0));
#455=DIRECTION('',(-0.0,1.0,0.0));
#456=DIRECTION('',(1.0,0.0,0.0));
#457=DIRECTION('',(-0.0,-1.0,-0.0));
#458=CARTESIAN_POINT('',(0.0,18.0,0.0));
#459=DIRECTION('',(-0.0,1.0,0.0));
#460=DIRECTION('',(1.0,0.0,0.0));
#461=CARTESIAN_POINT('',(0.0,18.0,0.0));
#462=DIRECTION('',(-0.0,1.0,0.0));
#463=DIRECTION('',(1.0,0.0,0.0));
#464=CARTESIAN_POINT('',(-9.49069924212343E-016,18.0,7.75));
#465=DIRECTION('',(-1.0,0.0,-1.22460635382238E-016));
#466=DIRECTION('',(-1.22460635382238E-016,-0.0,1.0));
#467=CARTESIAN_POINT('',(0.0,20.0,0.0));
#468=DIRECTION('',(-0.0,1.0,0.0));
#469=DIRECTION('',(1.0,0.0,0.0));
#470=CARTESIAN_POINT('',(0.0,20.0,0.0));
#471=DIRECTION('',(-0.0,1.0,0.0));
#472=DIRECTION('',(1.0,0.0,0.0));
#473=CARTESIAN_POINT('',(9.49069924212343E-016,18.0,-7.75));
#474=DIRECTION('',(-1.0,0.0,-1.22460635382238E-016));
#475=DIRECTION('',(1.22460635382238E-016,0.0,-1.0));
#476=CARTESIAN_POINT('',(0.0,18.0,0.0));
#477=DIRECTION('',(-0.0,1.0,0.0));
#478=DIRECTION('',(1.0,0.0,0.0));
#479=DIRECTION('',(0.0,1.0,0.0));
#480=CARTESIAN_POINT('',(0.0,16.0,0.0));
#481=DIRECTION('',(-0.0,1.0,0.0));
#482=DIRECTION('',(1.0,0.0,0.0));
#483=DIRECTION('',(-0.0,-1.0,-0.0));
#484=CARTESIAN_POINT('',(0.0,20.0,0.0));
#485=DIRECTION('',(-0.0,1.0,0.0));
#486=DIRECTION('',(1.0,0.0,0.0));
#487=DIRECTION('',(0.0,1.0,0.0));
#488=CARTESIAN_POINT('',(0.0,1.67942286340599,0.0));
#489=DIRECTION('',(-0.0,1.0,0.0));
#490=DIRECTION('',(1.0,0.0,0.0));
#491=DIRECTION('',(-0.0,-1.0,-0.0));
#492=CARTESIAN_POINT('',(0.0,16.0,0.0));
#493=DIRECTION('',(-0.0,1.0,0.0));
#494=DIRECTION('',(1.0,0.0,0.0));
#495=DIRECTION('',(0.258819045102521,0.965925826289068,3.16951447122787E-017));
#496=CARTESIAN_POINT('',(0.0,0.0,0.0));
#497=DIRECTION('',(-0.0,1.0,0.0));
#498=DIRECTION('',(1.0,0.0,0.0));
#499=DIRECTION('',(0.258819045102521,-0.965925826289068,3.16951447122787E-017));
#500=CARTESIAN_POINT('',(0.0,1.67942286340599,0.0));
#501=DIRECTION('',(-0.0,1.0,0.0));
#502=DIRECTION('',(1.0,0.0,0.0));
#503=CARTESIAN_POINT('',(0.0,0.0,0.0));
#504=DIRECTION('',(-0.0,1.0,0.0));
#505=DIRECTION('',(1.0,0.0,0.0));
#506=CARTESIAN_POINT('',(0.0,16.0,0.0));
#507=DIRECTION('',(-0.0,1.0,0.0));
#508=DIRECTION('',(1.0,0.0,0.0));
#509=CARTESIAN_POINT('',(0.0,16.0,0.0));
#510=DIRECTION('',(-0.0,1.0,0.0));
#511=DIRECTION('',(1.0,0.0,0.0));
#512=CARTESIAN_POINT('',(0.0,20.0,0.0));
#513=DIRECTION('',(-0.0,1.0,0.0));
#514=DIRECTION('',(1.0,0.0,0.0));
#515=CARTESIAN_POINT('',(0.0,20.0,0.0));
#516=DIRECTION('',(-0.0,1.0,0.0));
#517=DIRECTION('',(1.0,0.0,0.0));
#518=CARTESIAN_POINT('',(0.0,18.0,0.0));
#519=DIRECTION('',(-0.0,1.0,0.0));
#520=DIRECTION('',(1.0,0.0,0.0));
#521=CARTESIAN_POINT('',(0.0,0.0,0.0));
#522=DIRECTION('',(-0.0,1.0,0.0));
#523=DIRECTION('',(1.0,0.0,0.0));
ENDSEC;
END-ISO-10303-21;
